  0
SECTION
  2
HEADER
  9
$ACADVER
  1
AC1015
  9
$ACADMAINTVER
 70
     6
  9
$DWGCODEPAGE
  3
ANSI_1254
  9
$INSBASE
 10
0.0
 20
0.0
 30
0.0
  9
$EXTMIN
 10
0.0
 20
0.0
 30
0.0
  9
$EXTMAX
 10
279.4
 20
215.9
 30
0.0
  9
$LIMMIN
 10
0.0
 20
0.0
  9
$LIMMAX
 10
279.4
 20
215.9
  9
$ORTHOMODE
 70
     0
  9
$REGENMODE
 70
     1
  9
$FILLMODE
 70
     1
  9
$QTEXTMODE
 70
     0
  9
$MIRRTEXT
 70
     1
  9
$LTSCALE
 40
1.0
  9
$ATTMODE
 70
     1
  9
$TEXTSIZE
 40
3.5
  9
$TRACEWID
 40
1.0
  9
$TEXTSTYLE
  7
Standard
  9
$CLAYER
  8
0
  9
$CELTYPE
  6
ByLayer
  9
$CECOLOR
 62
   256
  9
$CELTSCALE
 40
1.0
  9
$DISPSILH
 70
     0
  9
$DIMSCALE
 40
1.0
  9
$DIMASZ
 40
3.5
  9
$DIMEXO
 40
1.0
  9
$DIMDLI
 40
3.75
  9
$DIMRND
 40
0.0
  9
$DIMDLE
 40
0.0
  9
$DIMEXE
 40
1.0
  9
$DIMTP
 40
0.0
  9
$DIMTM
 40
0.0
  9
$DIMTXT
 40
3.5
  9
$DIMCEN
 40
2.5
  9
$DIMTSZ
 40
0.0
  9
$DIMTOL
 70
     0
  9
$DIMLIM
 70
     0
  9
$DIMTIH
 70
     1
  9
$DIMTOH
 70
     1
  9
$DIMSE1
 70
     0
  9
$DIMSE2
 70
     0
  9
$DIMTAD
 70
     1
  9
$DIMZIN
 70
     0
  9
$DIMBLK
  1

  9
$DIMASO
 70
     1
  9
$DIMSHO
 70
     1
  9
$DIMPOST
  1

  9
$DIMAPOST
  1

  9
$DIMALT
 70
     0
  9
$DIMALTD
 70
     3
  9
$DIMALTF
 40
0.0393700787
  9
$DIMLFAC
 40
1.0
  9
$DIMTOFL
 70
     1
  9
$DIMTVP
 40
0.0
  9
$DIMTIX
 70
     0
  9
$DIMSOXD
 70
     0
  9
$DIMSAH
 70
     0
  9
$DIMBLK1
  1

  9
$DIMBLK2
  1

  9
$DIMSTYLE
  2
ISO-25
  9
$DIMCLRD
 70
     0
  9
$DIMCLRE
 70
     0
  9
$DIMCLRT
 70
     0
  9
$DIMTFAC
 40
1.0
  9
$DIMGAP
 40
1.524
  9
$DIMJUST
 70
     0
  9
$DIMSD1
 70
     0
  9
$DIMSD2
 70
     0
  9
$DIMTOLJ
 70
     0
  9
$DIMTZIN
 70
     0
  9
$DIMALTZ
 70
     0
  9
$DIMALTTZ
 70
     0
  9
$DIMUPT
 70
     0
  9
$DIMDEC
 70
     2
  9
$DIMTDEC
 70
     2
  9
$DIMALTU
 70
     2
  9
$DIMALTTD
 70
     3
  9
$DIMTXSTY
  7
Standard
  9
$DIMAUNIT
 70
     0
  9
$DIMADEC
 70
     2
  9
$DIMALTRND
 40
0.0
  9
$DIMAZIN
 70
     0
  9
$DIMDSEP
 70
    44
  9
$DIMATFIT
 70
     3
  9
$DIMFRAC
 70
     0
  9
$DIMLDRBLK
  1

  9
$DIMLUNIT
 70
     2
  9
$DIMLWD
 70
    -2
  9
$DIMLWE
 70
    -2
  9
$DIMTMOVE
 70
     0
  9
$LUNITS
 70
     2
  9
$LUPREC
 70
     2
  9
$SKETCHINC
 40
1.0
  9
$FILLETRAD
 40
10.0
  9
$AUNITS
 70
     0
  9
$AUPREC
 70
     2
  9
$MENU
  1
.
  9
$ELEVATION
 40
0.0
  9
$PELEVATION
 40
0.0
  9
$THICKNESS
 40
0.0
  9
$LIMCHECK
 70
     0
  9
$CHAMFERA
 40
0.0
  9
$CHAMFERB
 40
0.0
  9
$CHAMFERC
 40
0.0
  9
$CHAMFERD
 40
0.0
  9
$SKPOLY
 70
     0
  9
$TDCREATE
 40
2460697.540971886
  9
$TDUCREATE
 40
2460697.415971886
  9
$TDUPDATE
 40
2460697.540971886
  9
$TDUUPDATE
 40
2460697.415971886
  9
$TDINDWG
 40
0.0000000116
  9
$TDUSRTIMER
 40
0.0000000116
  9
$USRTIMER
 70
     1
  9
$ANGBASE
 50
0.0
  9
$ANGDIR
 70
     0
  9
$PDMODE
 70
     0
  9
$PDSIZE
 40
-1.0
  9
$PLINEWID
 40
0.0
  9
$SPLFRAME
 70
     0
  9
$SPLINETYPE
 70
     6
  9
$SPLINESEGS
 70
     8
  9
$HANDSEED
  5
B2
  9
$SURFTAB1
 70
     6
  9
$SURFTAB2
 70
     6
  9
$SURFTYPE
 70
     6
  9
$SURFU
 70
     6
  9
$SURFV
 70
     6
  9
$UCSBASE
  2

  9
$UCSNAME
  2

  9
$UCSORG
 10
0.0
 20
0.0
 30
0.0
  9
$UCSXDIR
 10
1.0
 20
0.0
 30
0.0
  9
$UCSYDIR
 10
0.0
 20
1.0
 30
0.0
  9
$UCSORTHOREF
  2

  9
$UCSORTHOVIEW
 70
     0
  9
$UCSORGTOP
 10
0.0
 20
0.0
 30
0.0
  9
$UCSORGBOTTOM
 10
0.0
 20
0.0
 30
0.0
  9
$UCSORGLEFT
 10
0.0
 20
0.0
 30
0.0
  9
$UCSORGRIGHT
 10
0.0
 20
0.0
 30
0.0
  9
$UCSORGFRONT
 10
0.0
 20
0.0
 30
0.0
  9
$UCSORGBACK
 10
0.0
 20
0.0
 30
0.0
  9
$PUCSBASE
  2

  9
$PUCSNAME
  2

  9
$PUCSORG
 10
0.0
 20
0.0
 30
0.0
  9
$PUCSXDIR
 10
1.0
 20
0.0
 30
0.0
  9
$PUCSYDIR
 10
0.0
 20
1.0
 30
0.0
  9
$PUCSORTHOREF
  2

  9
$PUCSORTHOVIEW
 70
     0
  9
$PUCSORGTOP
 10
0.0
 20
0.0
 30
0.0
  9
$PUCSORGBOTTOM
 10
0.0
 20
0.0
 30
0.0
  9
$PUCSORGLEFT
 10
0.0
 20
0.0
 30
0.0
  9
$PUCSORGRIGHT
 10
0.0
 20
0.0
 30
0.0
  9
$PUCSORGFRONT
 10
0.0
 20
0.0
 30
0.0
  9
$PUCSORGBACK
 10
0.0
 20
0.0
 30
0.0
  9
$USERI1
 70
     0
  9
$USERI2
 70
     0
  9
$USERI3
 70
     0
  9
$USERI4
 70
     0
  9
$USERI5
 70
     0
  9
$USERR1
 40
0.0
  9
$USERR2
 40
0.0
  9
$USERR3
 40
0.0
  9
$USERR4
 40
0.0
  9
$USERR5
 40
0.0
  9
$WORLDVIEW
 70
     1
  9
$SHADEDGE
 70
     3
  9
$SHADEDIF
 70
    70
  9
$TILEMODE
 70
     1
  9
$MAXACTVP
 70
    64
  9
$PINSBASE
 10
0.0
 20
0.0
 30
0.0
  9
$PLIMCHECK
 70
     0
  9
$PEXTMIN
 10
1.0000000000E+20
 20
1.0000000000E+20
 30
1.0000000000E+20
  9
$PEXTMAX
 10
-1.0000000000E+20
 20
-1.0000000000E+20
 30
-1.0000000000E+20
  9
$PLIMMIN
 10
0.0
 20
0.0
  9
$PLIMMAX
 10
420.0
 20
297.0
  9
$UNITMODE
 70
     0
  9
$VISRETAIN
 70
     1
  9
$PLINEGEN
 70
     0
  9
$PSLTSCALE
 70
     1
  9
$TREEDEPTH
 70
  3020
  9
$CMLSTYLE
  2
Standard
  9
$CMLJUST
 70
     0
  9
$CMLSCALE
 40
20.0
  9
$PROXYGRAPHICS
 70
     1
  9
$MEASUREMENT
 70
     1
  9
$CELWEIGHT
370
    -1
  9
$ENDCAPS
280
     0
  9
$JOINSTYLE
280
     0
  9
$LWDISPLAY
290
     1
  9
$INSUNITS
 70
     4
  9
$HYPERLINKBASE
  1

  9
$STYLESHEET
  1

  9
$XEDIT
290
     1
  9
$CEPSNTYPE
380
     0
  9
$PSTYLEMODE
290
     1
  9
$FINGERPRINTGUID
  2
{c2034a31-2876-423c-bbe8-b4d98697bacc}
  9
$VERSIONGUID
  2
{FAEB1C32-E019-11D5-929B-00C0DF256EC4}
  9
$EXTNAMES
290
     1
  9
$PSVPSCALE
 40
0.0
  9
$OLESTARTUP
290
     0
  0
ENDSEC
  0
SECTION
  2
CLASSES
  0
CLASS
  1
ACDBDICTIONARYWDFLT
  2
AcDbDictionaryWithDefault
  3
ObjectDBX Classes
 90
        0
280
     0
281
     0
  0
CLASS
  1
VISUALSTYLE
  2
AcDbVisualStyle
  3
ObjectDBX Classes
 90
     4095
280
     0
281
     0
  0
CLASS
  1
MATERIAL
  2
AcDbMaterial
  3
ObjectDBX Classes
 90
     1153
280
     0
281
     0
  0
CLASS
  1
SCALE
  2
AcDbScale
  3
ObjectDBX Classes
 90
     1153
280
     0
281
     0
  0
CLASS
  1
TABLESTYLE
  2
AcDbTableStyle
  3
ObjectDBX Classes
 90
     4095
280
     0
281
     0
  0
CLASS
  1
MLEADERSTYLE
  2
AcDbMLeaderStyle
  3
ACDB_MLEADERSTYLE_CLASS
 90
     4095
280
     0
281
     0
  0
CLASS
  1
SUN
  2
AcDbSun
  3
SCENEOE
 90
     1153
280
     0
281
     0
  0
CLASS
  1
ACDBPLACEHOLDER
  2
AcDbPlaceHolder
  3
ObjectDBX Classes
 90
        0
280
     0
281
     0
  0
CLASS
  1
LAYOUT
  2
AcDbLayout
  3
ObjectDBX Classes
 90
        0
280
     0
281
     0
  0
ENDSEC
  0
SECTION
  2
TABLES
  0
TABLE
  2
VPORT
  5
8
330
0
100
AcDbSymbolTable
 70
     1
  0
VPORT
  5
29
330
8
100
AcDbSymbolTableRecord
100
AcDbViewportTableRecord
  2
*Active
 70
     0
 10
0.0
 20
0.0
 11
1.0
 21
1.0
 12
139.7
 22
107.95
 13
0.0
 23
0.0
 14
10.0
 24
10.0
 15
10.0
 25
10.0
 16
0.0
 26
0.0
 36
1.0
 17
0.0
 27
0.0
 37
0.0
 40
215.9
 41
1.2941176471
 42
50.0
 43
0.0
 44
0.0
 50
0.0
 51
0.0
 71
     0
 72
  2000
 73
     1
 74
     3
 75
     0
 76
     0
 77
     0
 78
     0
281
     0
 65
     1
110
0.0
120
0.0
130
0.0
111
1.0
121
0.0
131
0.0
112
0.0
122
1.0
132
0.0
 79
     0
146
0.0
  0
ENDTAB
  0
TABLE
  2
LTYPE
  5
5
330
0
100
AcDbSymbolTable
 70
     6
  0
LTYPE
  5
14
330
5
100
AcDbSymbolTableRecord
100
AcDbLinetypeTableRecord
  2
ByBlock
 70
     0
  3

 72
    65
 73
     0
 40
0.0
  0
LTYPE
  5
15
330
5
100
AcDbSymbolTableRecord
100
AcDbLinetypeTableRecord
  2
ByLayer
 70
     0
  3

 72
    65
 73
     0
 40
0.0
  0
LTYPE
  5
16
330
5
100
AcDbSymbolTableRecord
100
AcDbLinetypeTableRecord
  2
Continuous
 70
     0
  3
Solid line
 72
    65
 73
     0
 40
0.0
  0
LTYPE
  5
6E
330
5
100
AcDbSymbolTableRecord
100
AcDbLinetypeTableRecord
  2
HIDDEN
 70
     0
  3
Hidden __ __ __ __ __ __ __ __ __ __ __ __ __ __
 72
    65
 73
     2
 40
1.905
 49
1.27
 74
     0
 49
-0.635
 74
     0
  0
LTYPE
  5
6F
330
5
100
AcDbSymbolTableRecord
100
AcDbLinetypeTableRecord
  2
PHANTOM
 70
     0
  3
Phantom ______  __  __  ______  __  __  ______
 72
    65
 73
     6
 40
12.7
 49
6.35
 74
     0
 49
-1.27
 74
     0
 49
1.27
 74
     0
 49
-1.27
 74
     0
 49
1.27
 74
     0
 49
-1.27
 74
     0
  0
LTYPE
  5
70
330
5
100
AcDbSymbolTableRecord
100
AcDbLinetypeTableRecord
  2
CENTER
 70
     0
  3
Center ____ _ ____ _ ____ _ ____ _ ____ _ ____
 72
    65
 73
     4
 40
10.16
 49
6.35
 74
     0
 49
-1.27
 74
     0
 49
1.27
 74
     0
 49
-1.27
 74
     0
  0
LTYPE
  5
71
330
5
100
AcDbSymbolTableRecord
100
AcDbLinetypeTableRecord
  2
CENTERX2
 70
     0
  3
Center (2x) ________  __  ________  __  _____
 72
    65
 73
     4
 40
20.32
 49
12.7
 74
     0
 49
-2.54
 74
     0
 49
2.54
 74
     0
 49
-2.54
 74
     0
  0
LTYPE
  5
72
330
5
100
AcDbSymbolTableRecord
100
AcDbLinetypeTableRecord
  2
DOT2
 70
     0
  3
Dot (.5x) ........................................
 72
    65
 73
     2
 40
0.635
 49
0.0
 74
     0
 49
-0.635
 74
     0
  0
ENDTAB
  0
TABLE
  2
LAYER
  5
2
330
0
100
AcDbSymbolTable
 70
    17
  0
LAYER
  5
10
330
2
100
AcDbSymbolTableRecord
100
AcDbLayerTableRecord
  2
0
 70
     0
 62
     7
  6
Continuous
370
    -3
390
F
  0
LAYER
  5
73
330
2
100
AcDbSymbolTableRecord
100
AcDbLayerTableRecord
  2
FORMAT
 70
     0
 62
     7
  6
Continuous
370
    -3
390
F
  0
LAYER
  5
74
330
2
100
AcDbSymbolTableRecord
100
AcDbLayerTableRecord
  2
YARDIMCI_GEOMETRI
 70
     0
 62
    -6
  6
Continuous
290
     0
370
    -3
390
F
  0
LAYER
  5
75
330
2
100
AcDbSymbolTableRecord
100
AcDbLayerTableRecord
  2
SAYFA_CERCEVESI
 70
     0
 62
     7
  6
Continuous
370
    25
390
F
  0
LAYER
  5
76
330
2
100
AcDbSymbolTableRecord
100
AcDbLayerTableRecord
  2
ANTET
 70
     0
 62
     7
  6
Continuous
370
    -3
390
F
  0
LAYER
  5
77
330
2
100
AcDbSymbolTableRecord
100
AcDbLayerTableRecord
  2
OLCU
 70
     0
 62
   150
  6
Continuous
370
    -3
390
F
  0
LAYER
  5
78
330
2
100
AcDbSymbolTableRecord
100
AcDbLayerTableRecord
  2
METIN
 70
     0
 62
    96
  6
Continuous
370
    -3
390
F
  0
LAYER
  5
79
330
2
100
AcDbSymbolTableRecord
100
AcDbLayerTableRecord
  2
BALON
 70
     0
 62
     5
  6
Continuous
370
    -3
390
F
  0
LAYER
  5
7A
330
2
100
AcDbSymbolTableRecord
100
AcDbLayerTableRecord
  2
VURGU
 70
     0
 62
     7
  6
Continuous
370
    -3
390
F
  0
LAYER
  5
7B
330
2
100
AcDbSymbolTableRecord
100
AcDbLayerTableRecord
  2
SILIK
 70
     0
 62
     7
  6
Continuous
370
    -3
390
F
  0
LAYER
  5
7C
330
2
100
AcDbSymbolTableRecord
100
AcDbLayerTableRecord
  2
MODEL
 70
     0
 62
     7
  6
Continuous
370
    -3
390
F
  0
LAYER
  5
7D
330
2
100
AcDbSymbolTableRecord
100
AcDbLayerTableRecord
  2
DETAYLANDıRMA
 70
     0
 62
   190
  6
Continuous
370
    -3
390
F
  0
LAYER
  5
7E
330
2
100
AcDbSymbolTableRecord
100
AcDbLayerTableRecord
  2
TOLERANS
 70
     0
 62
   230
  6
Continuous
370
    -3
390
F
  0
LAYER
  5
7F
330
2
100
AcDbSymbolTableRecord
100
AcDbLayerTableRecord
  2
MERKEZ_CIZGILERI
 70
     0
 62
    30
  6
Continuous
370
    -3
390
F
  0
LAYER
  5
80
330
2
100
AcDbSymbolTableRecord
100
AcDbLayerTableRecord
  2
KESIT-DETAY_CIZGILERI
 70
     0
 62
     7
  6
Continuous
370
    -3
390
F
  0
LAYER
  5
81
330
2
100
AcDbSymbolTableRecord
100
AcDbLayerTableRecord
  2
\U+041E\U+0421\U+0415\U+0412\U+042B\U+0415
 70
     0
 62
     7
  6
Continuous
370
    -3
390
F
  0
LAYER
  5
82
330
2
100
AcDbSymbolTableRecord
100
AcDbLayerTableRecord
  2
\U+0412\U+041E\U+0414\U+042F\U+041D\U+042B\U+0415_\U+0417\U+041D\U+0410\U+041A\U+0418
 70
     0
 62
    11
  6
Continuous
370
    -3
390
F
  0
ENDTAB
  0
TABLE
  2
STYLE
  5
3
330
0
100
AcDbSymbolTable
 70
     1
  0
STYLE
  5
11
330
3
100
AcDbSymbolTableRecord
100
AcDbTextStyleTableRecord
  2
Standard
 70
     0
 40
0.0
 41
1.0
 50
0.0
 71
     0
 42
3.5
  3
txt
  4

  0
ENDTAB
  0
TABLE
  2
VIEW
  5
6
330
0
100
AcDbSymbolTable
 70
     0
  0
ENDTAB
  0
TABLE
  2
UCS
  5
7
330
0
100
AcDbSymbolTable
 70
     0
  0
ENDTAB
  0
TABLE
  2
APPID
  5
9
330
0
100
AcDbSymbolTable
 70
     1
  0
APPID
  5
12
330
9
100
AcDbSymbolTableRecord
100
AcDbRegAppTableRecord
  2
ACAD
 70
     0
  0
ENDTAB
  0
TABLE
  2
DIMSTYLE
  5
A
330
0
100
AcDbSymbolTable
 70
     1
100
AcDbDimStyleTable
  0
DIMSTYLE
105
27
330
A
100
AcDbSymbolTableRecord
100
AcDbDimStyleTableRecord
  2
ISO-25
 70
     0
 41
2.5
 42
0.625
 43
3.75
 44
1.25
 73
     0
 74
     0
 77
     1
 78
     8
140
2.5
141
2.5
143
0.0393700787
147
0.625
171
     3
172
     1
178
     0
271
     2
272
     2
274
     3
278
    44
283
     0
284
     8
340
11
  0
ENDTAB
  0
TABLE
  2
BLOCK_RECORD
  5
1
330
0
100
AcDbSymbolTable
 70
     2
  0
BLOCK_RECORD
  5
1F
330
1
100
AcDbSymbolTableRecord
100
AcDbBlockTableRecord
  2
*Model_Space
340
22
  0
BLOCK_RECORD
  5
1B
330
1
100
AcDbSymbolTableRecord
100
AcDbBlockTableRecord
  2
*Paper_Space
340
1E
  0
BLOCK_RECORD
  5
23
330
1
100
AcDbSymbolTableRecord
100
AcDbBlockTableRecord
  2
*Paper_Space0
340
26
  0
BLOCK_RECORD
  5
85
330
1
100
AcDbSymbolTableRecord
100
AcDbBlockTableRecord
  2
SW_CENTERMARKSYMBOL_0
340
0
102
{BLKREFS
331
90
102
}
  0
ENDTAB
  0
ENDSEC
  0
SECTION
  2
BLOCKS
  0
BLOCK
  5
20
330
1F
100
AcDbEntity
  8
0
100
AcDbBlockBegin
  2
*Model_Space
 70
     0
 10
0.0
 20
0.0
 30
0.0
  3
*Model_Space
  1

  0
ENDBLK
  5
21
330
1F
100
AcDbEntity
  8
0
100
AcDbBlockEnd
  0
BLOCK
  5
1C
330
1B
100
AcDbEntity
 67
     1
  8
0
100
AcDbBlockBegin
  2
*Paper_Space
 70
     0
 10
0.0
 20
0.0
 30
0.0
  3
*Paper_Space
  1

  0
ENDBLK
  5
1D
330
1B
100
AcDbEntity
 67
     1
  8
0
100
AcDbBlockEnd
  0
BLOCK
  5
24
330
23
100
AcDbEntity
  8
0
100
AcDbBlockBegin
  2
*Paper_Space0
 70
     0
 10
0.0
 20
0.0
 30
0.0
  3
*Paper_Space0
  1

  0
ENDBLK
  5
25
330
23
100
AcDbEntity
  8
0
100
AcDbBlockEnd
  0
BLOCK
  5
86
330
85
100
AcDbEntity
  8
0
100
AcDbBlockBegin
  2
SW_CENTERMARKSYMBOL_0
 70
     0
 10
0.0
 20
0.0
 30
0.0
  3
SW_CENTERMARKSYMBOL_0
  1

  0
LINE
  5
88
330
85
100
AcDbEntity
  8
FORMAT
 62
     0
100
AcDbLine
 10
0.0
 20
0.0
 30
0.0
 11
0.0
 21
2.5
 31
0.0
  0
LINE
  5
89
330
85
100
AcDbEntity
  8
FORMAT
 62
     0
100
AcDbLine
 10
0.0
 20
0.0
 30
0.0
 11
-2.5
 21
0.0
 31
0.0
  0
LINE
  5
8A
330
85
100
AcDbEntity
  8
FORMAT
 62
     0
100
AcDbLine
 10
0.0
 20
0.0
 30
0.0
 11
0.0
 21
-2.5
 31
0.0
  0
LINE
  5
8B
330
85
100
AcDbEntity
  8
FORMAT
 62
     0
100
AcDbLine
 10
0.0
 20
0.0
 30
0.0
 11
2.5
 21
0.0
 31
0.0
  0
LINE
  5
8C
330
85
100
AcDbEntity
  8
FORMAT
 62
     0
100
AcDbLine
 10
0.0
 20
5.0
 30
0.0
 11
0.0
 21
102.5
 31
0.0
  0
LINE
  5
8D
330
85
100
AcDbEntity
  8
FORMAT
 62
     0
100
AcDbLine
 10
-5.0
 20
0.0
 30
0.0
 11
-102.5
 21
0.0
 31
0.0
  0
LINE
  5
8E
330
85
100
AcDbEntity
  8
FORMAT
 62
     0
100
AcDbLine
 10
0.0
 20
-5.0
 30
0.0
 11
0.0
 21
-102.5
 31
0.0
  0
LINE
  5
8F
330
85
100
AcDbEntity
  8
FORMAT
 62
     0
100
AcDbLine
 10
5.0
 20
0.0
 30
0.0
 11
102.5
 21
0.0
 31
0.0
  0
ENDBLK
  5
87
330
85
100
AcDbEntity
  8
0
100
AcDbBlockEnd
  0
ENDSEC
  0
SECTION
  2
ENTITIES
  0
CIRCLE
  5
83
330
1F
100
AcDbEntity
  8
0
  6
Continuous
 62
     7
370
    25
100
AcDbCircle
 10
139.8001539705
 20
112.0309059402
 30
0.0
 40
81.80000000000003
  0
CIRCLE
  5
84
330
1F
100
AcDbEntity
  8
0
  6
Continuous
 62
     7
370
    25
100
AcDbCircle
 10
139.8001539705
 20
112.0309059402
 30
0.0
 40
100.0
  0
INSERT
  5
90
330
1F
100
AcDbEntity
  8
FORMAT
100
AcDbBlockReference
  2
SW_CENTERMARKSYMBOL_0
 10
139.8001539705
 20
112.0309059402
 30
0.0
  0
ARC
  5
91
330
1F
100
AcDbEntity
  8
0
  6
Continuous
 62
     7
370
    25
100
AcDbCircle
 10
136.8589780234
 20
569.709998189
 30
0.0
 40
300.0000000000001
100
AcDbArc
 50
270.5617322275
 51
290.0681281789
  0
ARC
  5
92
330
1F
100
AcDbEntity
  8
0
  6
Continuous
 62
     7
370
    25
100
AcDbCircle
 10
142.7413299176
 20
569.709998189
 30
0.0
 40
300.0000000000001
100
AcDbArc
 50
249.9318718211
 51
269.4382677725
  0
LINE
  5
93
330
1F
100
AcDbEntity
  8
0
  6
Continuous
 62
     7
370
    25
100
AcDbLine
 10
39.8001539705
 20
417.9523045137
 30
0.0
 11
39.8001539705
 21
287.9244160621
 31
0.0
  0
LINE
  5
94
330
1F
100
AcDbEntity
  8
0
  6
Continuous
 62
     7
370
    25
100
AcDbLine
 10
239.8001539705
 20
287.9244160621
 30
0.0
 11
239.8001539705
 21
417.9523045137
 31
0.0
  0
LINE
  5
95
330
1F
100
AcDbEntity
  8
0
  6
Continuous
 62
     7
370
    25
100
AcDbLine
 10
139.8001539705
 20
287.9244160621
 30
0.0
 11
239.8001539705
 21
287.9244160621
 31
0.0
  0
LINE
  5
96
330
1F
100
AcDbEntity
  8
0
  6
Continuous
 62
     7
370
    25
100
AcDbLine
 10
39.8001539705
 20
287.9244160621
 30
0.0
 11
139.8001539705
 21
287.9244160621
 31
0.0
  0
LINE
  5
97
330
1F
100
AcDbEntity
  8
0
  6
Continuous
 62
     7
370
    25
100
AcDbLine
 10
139.8001539705
 20
417.9523045137
 30
0.0
 11
239.8001539705
 21
417.9523045137
 31
0.0
  0
LINE
  5
98
330
1F
100
AcDbEntity
  8
0
  6
Continuous
 62
     7
370
    25
100
AcDbLine
 10
39.8001539705
 20
417.9523045137
 30
0.0
 11
139.8001539705
 21
417.9523045137
 31
0.0
  0
LINE
  5
99
330
1F
100
AcDbEntity
  8
0
  6
Continuous
 62
     7
370
    25
100
AcDbLine
 10
239.8001539705
 20
-212.2743971374
 30
0.0
 11
239.8001539705
 21
-82.2465086858
 31
0.0
  0
LINE
  5
9A
330
1F
100
AcDbEntity
  8
0
  6
Continuous
 62
     7
370
    25
100
AcDbLine
 10
39.8001539705
 20
-82.2465086858
 30
0.0
 11
39.8001539705
 21
-212.2743971374
 31
0.0
  0
ARC
  5
9B
330
1F
100
AcDbEntity
  8
0
  6
Continuous
 62
     7
370
    25
100
AcDbCircle
 10
142.7413299176
 20
-364.0320908127
 30
0.0
 40
299.9999999999999
100
AcDbArc
 50
90.5617322275
 51
110.0681281789
  0
ARC
  5
9C
330
1F
100
AcDbEntity
  8
0
  6
Continuous
 62
     7
370
    25
100
AcDbCircle
 10
136.8589780234
 20
-364.0320908127
 30
0.0
 40
299.9999999999999
100
AcDbArc
 50
69.9318718211
 51
89.4382677725
  0
LINE
  5
9D
330
1F
100
AcDbEntity
  8
0
  6
Continuous
 62
     7
370
    25
100
AcDbLine
 10
239.8001539705
 20
-212.2743971374
 30
0.0
 11
39.8001539705
 21
-212.2743971374
 31
0.0
  0
LINE
  5
9E
330
1F
100
AcDbEntity
  8
0
  6
Continuous
 62
     7
370
    25
100
AcDbLine
 10
239.8001539705
 20
-82.2465086858
 30
0.0
 11
39.8001539705
 21
-82.2465086858
 31
0.0
  0
ARC
  5
9F
330
1F
100
AcDbEntity
  8
0
  6
Continuous
 62
     7
370
    25
100
AcDbCircle
 10
603.8731417408
 20
114.9720818873
 30
0.0
 40
300.0
100
AcDbArc
 50
180.5617322275
 51
200.0681281789
  0
ARC
  5
A0
330
1F
100
AcDbEntity
  8
0
  6
Continuous
 62
     7
370
    25
100
AcDbCircle
 10
603.8731417408
 20
109.0897299931
 30
0.0
 40
300.0
100
AcDbArc
 50
159.9318718211
 51
179.4382677725
  0
LINE
  5
A1
330
1F
100
AcDbEntity
  8
0
  6
Continuous
 62
     7
370
    25
100
AcDbLine
 10
452.1154480654
 20
212.0309059402
 30
0.0
 11
322.0875596138
 21
212.0309059402
 31
0.0
  0
LINE
  5
A2
330
1F
100
AcDbEntity
  8
0
  6
Continuous
 62
     7
370
    25
100
AcDbLine
 10
322.0875596138
 20
12.0309059402
 30
0.0
 11
452.1154480654
 21
12.0309059402
 31
0.0
  0
LINE
  5
A3
330
1F
100
AcDbEntity
  8
0
  6
Continuous
 62
     7
370
    25
100
AcDbLine
 10
322.0875596138
 20
212.0309059402
 30
0.0
 11
322.0875596138
 21
12.0309059402
 31
0.0
  0
LINE
  5
A4
330
1F
100
AcDbEntity
  8
0
  6
Continuous
 62
     7
370
    25
100
AcDbLine
 10
452.1154480654
 20
212.0309059402
 30
0.0
 11
452.1154480654
 21
12.0309059402
 31
0.0
  0
ARC
  5
A5
330
1F
100
AcDbEntity
  8
0
  6
Continuous
 62
     7
370
    25
100
AcDbCircle
 10
-323.6843264787
 20
109.0897299931
 30
0.0
 40
299.9999999999999
100
AcDbArc
 50
0.5617322275
 51
20.0681281789
  0
ARC
  5
A6
330
1F
100
AcDbEntity
  8
0
  6
Continuous
 62
     7
370
    25
100
AcDbCircle
 10
-323.6843264787
 20
114.9720818873
 30
0.0
 40
299.9999999999999
100
AcDbArc
 50
339.9318718211
 51
359.4382677725
  0
LINE
  5
A7
330
1F
100
AcDbEntity
  8
0
  6
Continuous
 62
     7
370
    25
100
AcDbLine
 10
-171.9266328033
 20
12.0309059402
 30
0.0
 11
-41.8987443517
 21
12.0309059402
 31
0.0
  0
LINE
  5
A8
330
1F
100
AcDbEntity
  8
0
  6
Continuous
 62
     7
370
    25
100
AcDbLine
 10
-41.8987443517
 20
212.0309059402
 30
0.0
 11
-171.9266328033
 21
212.0309059402
 31
0.0
  0
LINE
  5
A9
330
1F
100
AcDbEntity
  8
0
  6
Continuous
 62
     7
370
    25
100
AcDbLine
 10
-41.8987443517
 20
12.0309059402
 30
0.0
 11
-41.8987443517
 21
212.0309059402
 31
0.0
  0
LINE
  5
AA
330
1F
100
AcDbEntity
  8
0
  6
Continuous
 62
     7
370
    25
100
AcDbLine
 10
-171.9266328033
 20
12.0309059402
 30
0.0
 11
-171.9266328033
 21
212.0309059402
 31
0.0
  0
LINE
  5
AB
330
1F
100
AcDbEntity
  8
0
  6
Continuous
 62
     7
370
    25
100
AcDbLine
 10
319.2821835666
 20
-213.6591636526
 30
0.0
 11
411.2257852341
 21
-266.7370751002
 31
0.0
  0
LINE
  5
AC
330
1F
100
AcDbEntity
  8
0
  6
Continuous
 62
     7
370
    25
100
AcDbLine
 10
511.2176584977
 20
-93.527302624
 30
0.0
 11
419.2740568302
 21
-40.4493911765
 31
0.0
  0
LWPOLYLINE
  5
AD
330
1F
100
AcDbEntity
  8
0
  6
Continuous
 62
     7
370
    25
100
AcDbPolyline
 90
      135
 70
   128
 43
0.0
 10
369.2781201984
 20
-208.7083586031
 10
372.5924896626
 20
-206.7052671423
 10
375.8995734234
 20
-204.5270855194
 10
379.1921017929
 20
-202.1786018506
 10
382.4628370794
 20
-199.6649786125
 10
385.7045894966
 20
-196.9917412946
 10
388.9102329693
 20
-194.1647662526
 10
392.0727207974
 20
-191.1902677913
 10
395.1851011464
 20
-188.0747845038
 10
398.2405323286
 20
-184.8251648986
 10
401.2322978433
 20
-181.4485523447
 10
404.1538211406
 20
-177.9523693693
 10
406.9986800782
 20
-174.3443013416
 10
409.7606210387
 20
-170.6322795779
 10
412.4335726765
 20
-166.8244639079
 10
415.0116592638
 20
-162.9292247366
 10
417.4892136068
 20
-158.9551246453
 10
419.8607895032
 20
-154.9108995683
 10
422.1211737147
 20
-150.8054395902
 10
424.2653974261
 20
-146.6477694029
 10
426.2887471683
 20
-142.4470284678
 10
428.1867751794
 20
-138.2124509253
 10
429.9553091821
 20
-133.9533452958
 10
431.5904615547
 20
-129.6790740178
 10
433.0886378775
 20
-125.3990328672
 10
434.4465448337
 20
-121.1226303033
 10
435.6611974491
 20
-116.8592667872
 10
436.7299256537
 20
-112.618314117
 10
437.6503801509
 20
-108.4090948271
 10
438.4205375821
 20
-104.2408616951
 10
439.0387049739
 20
-100.122777402
 10
439.5035234604
 20
-96.0638943909
 10
439.8139712695
 20
-92.0731349674
 10
439.9693659698
 20
-88.159271687
 10
439.9693659698
 20
-84.3309080704
 10
439.8139712695
 20
-80.5964596919
 10
439.5035234604
 20
-76.9641356794
 10
439.0387049739
 20
-73.4419206694
 10
438.4205375821
 20
-70.037557255
 10
437.6503801509
 20
-66.7585289657
 10
436.7299256537
 20
-63.6120438174
 10
435.6611974491
 20
-60.6050184674
 10
434.4465448337
 20
-57.7440630099
 10
433.0886378775
 20
-55.0354664459
 10
431.5904615547
 20
-52.4851828587
 10
429.9553091821
 20
-50.0988183248
 10
428.1867751794
 20
-47.8816185916
 10
426.2887471683
 20
-45.8384575452
 10
424.2653974261
 20
-43.973826497
 10
422.1211737147
 20
-42.2918243108
 10
419.8607895032
 20
-40.7961483924
 10
417.4892136068
 20
-39.490086562
 10
415.0116592638
 20
-38.3765098271
 10
412.4335726765
 20
-37.457866071
 10
409.7606210387
 20
-36.7361746719
 10
406.9986800782
 20
-36.2130220643
 10
404.1538211406
 20
-35.8895582511
 10
401.2322978433
 20
-35.766494276
 10
398.2405323286
 20
-35.8441006602
 10
395.1851011464
 20
-36.1222068082
 10
392.0727207974
 20
-36.6002013822
 10
388.9102329693
 20
-37.2770336465
 10
385.7045894966
 20
-38.1512157768
 10
382.4628370794
 20
-39.2208261311
 10
379.1921017929
 20
-40.4835134737
 10
375.8995734234
 20
-41.9365021437
 10
372.5924896626
 20
-43.5765981568
 10
369.2781201984
 20
-45.400196226
 10
365.9637507342
 20
-47.4032876868
 10
362.6566669733
 20
-49.5814693097
 10
359.3641386038
 20
-51.9299529785
 10
356.0934033174
 20
-54.4435762166
 10
352.8516509001
 20
-57.1168135345
 10
349.6460074274
 20
-59.9437885764
 10
346.4835195993
 20
-62.9182870378
 10
343.3711392503
 20
-66.0337703253
 10
340.3157080681
 20
-69.2833899305
 10
337.3239425534
 20
-72.6600024844
 10
334.4024192561
 20
-76.1561854597
 10
331.5575603185
 20
-79.7642534875
 10
328.795619358
 20
-83.4762752512
 10
326.1226677202
 20
-87.2840909212
 10
323.5445811329
 20
-91.1793300925
 10
321.0670267899
 20
-95.1534301838
 10
318.6954508935
 20
-99.1976552608
 10
316.435066682
 20
-103.3031152389
 10
314.2908429707
 20
-107.4607854262
 10
312.2674932285
 20
-111.6615263612
 10
310.3694652173
 20
-115.8961039037
 10
308.6009312146
 20
-120.1552095333
 10
306.965778842
 20
-124.4294808113
 10
305.4676025192
 20
-128.7095219619
 10
304.1096955631
 20
-132.9859245258
 10
302.8950429476
 20
-137.2492880419
 10
301.826314743
 20
-141.4902407121
 10
300.9058602458
 20
-145.699460002
 10
300.1357028147
 20
-149.867693134
 10
299.5175354228
 20
-153.9857774271
 10
299.0527169363
 20
-158.0446604382
 10
298.7422691272
 20
-162.0354198617
 10
298.5868744269
 20
-165.9492831421
 10
298.5868744269
 20
-169.7776467587
 10
298.7422691272
 20
-173.5120951372
 10
299.0527169363
 20
-177.1444191497
 10
299.5175354228
 20
-180.6666341597
 10
300.1357028147
 20
-184.0709975741
 10
300.9058602458
 20
-187.3500258634
 10
301.826314743
 20
-190.4965110117
 10
302.8950429476
 20
-193.5035363617
 10
304.1096955631
 20
-196.3644918192
 10
305.4676025192
 20
-199.0730883831
 10
306.965778842
 20
-201.6233719704
 10
308.6009312146
 20
-204.0097365043
 10
310.3694652173
 20
-206.2269362375
 10
312.2674932285
 20
-208.2700972839
 10
314.2908429707
 20
-210.134728332
 10
316.435066682
 20
-211.8167305183
 10
318.6954508935
 20
-213.3124064367
 10
321.0670267899
 20
-214.618468267
 10
323.5445811329
 20
-215.732045002
 10
326.1226677202
 20
-216.6506887581
 10
328.795619358
 20
-217.3723801572
 10
331.5575603185
 20
-217.8955327648
 10
334.4024192561
 20
-218.218996578
 10
337.3239425534
 20
-218.3420605531
 10
340.3157080681
 20
-218.2644541689
 10
343.3711392503
 20
-217.9863480209
 10
346.4835195993
 20
-217.5083534468
 10
349.6460074274
 20
-216.8315211826
 10
352.8516509001
 20
-215.9573390523
 10
356.0934033174
 20
-214.887728698
 10
359.3641386038
 20
-213.6250413554
 10
362.6566669733
 20
-212.1720526853
 10
365.9637507342
 20
-210.5319566723
 10
369.2781201984
 20
-208.7083586031
  0
LWPOLYLINE
  5
AE
330
1F
100
AcDbEntity
  8
0
  6
Continuous
 62
     7
370
    25
100
AcDbPolyline
 90
       52
 70
   128
 43
0.0
 10
461.2217218659
 20
-261.7862700507
 10
464.5360913301
 20
-259.7831785898
 10
467.8431750909
 20
-257.604996967
 10
471.1357034605
 20
-255.2565132981
 10
474.4064387469
 20
-252.7428900601
 10
477.6481911641
 20
-250.0696527421
 10
480.8538346368
 20
-247.2426777002
 10
484.016322465
 20
-244.2681792389
 10
487.1287028139
 20
-241.1526959514
 10
490.1841339961
 20
-237.9030763461
 10
493.1758995108
 20
-234.5264637922
 10
496.0974228081
 20
-231.0302808169
 10
498.9422817457
 20
-227.4222127891
 10
501.7042227062
 20
-223.7101910255
 10
504.377174344
 20
-219.9023753554
 10
506.9552609313
 20
-216.0071361842
 10
509.4328152743
 20
-212.0330360928
 10
511.8043911708
 20
-207.9888110158
 10
514.0647753822
 20
-203.8833510377
 10
516.2089990936
 20
-199.7256808504
 10
518.2323488358
 20
-195.5249399154
 10
520.130376847
 20
-191.2903623729
 10
521.8989108496
 20
-187.0312567434
 10
523.5340632222
 20
-182.7569854654
 10
525.032239545
 20
-178.4769443147
 10
526.3901465012
 20
-174.2005417509
 10
527.6047991166
 20
-169.9371782347
 10
528.6735273212
 20
-165.6962255645
 10
529.5939818184
 20
-161.4870062746
 10
530.3641392496
 20
-157.3187731427
 10
530.9823066414
 20
-153.2006888496
 10
531.4471251279
 20
-149.1418058384
 10
531.7575729371
 20
-145.151046415
 10
531.9129676373
 20
-141.2371831345
 10
531.9129676373
 20
-137.408819518
 10
531.7575729371
 20
-133.6743711394
 10
531.4471251279
 20
-130.0420471269
 10
530.9823066414
 20
-126.519832117
 10
530.3641392496
 20
-123.1154687025
 10
529.5939818184
 20
-119.8364404133
 10
528.6735273212
 20
-116.689955265
 10
527.6047991166
 20
-113.6829299149
 10
526.3901465012
 20
-110.8219744574
 10
525.032239545
 20
-108.1133778935
 10
523.5340632222
 20
-105.5630943062
 10
521.8989108496
 20
-103.1767297724
 10
520.130376847
 20
-100.9595300392
 10
518.2323488358
 20
-98.9163689928
 10
516.2089990936
 20
-97.0517379446
 10
514.0647753822
 20
-95.3697357584
 10
511.8043911708
 20
-93.8740598399
 10
511.2176584977
 20
-93.527302624
  0
LWPOLYLINE
  5
AF
330
1F
100
AcDbEntity
  8
0
  6
Continuous
 62
     7
370
    25
100
AcDbPolyline
 90
       18
 70
   128
 43
0.0
 10
411.2257852341
 20
-266.7370751002
 10
413.0106284574
 20
-267.6963797146
 10
415.4881828004
 20
-268.8099564495
 10
418.0662693877
 20
-269.7286002057
 10
420.7392210255
 20
-270.4502916047
 10
423.501161986
 20
-270.9734442123
 10
426.3460209236
 20
-271.2969080255
 10
429.2675442209
 20
-271.4199720007
 10
432.2593097356
 20
-271.3423656164
 10
435.3147409179
 20
-271.0642594684
 10
438.4271212668
 20
-270.5862648944
 10
441.5896090949
 20
-269.9094326301
 10
444.7952525676
 20
-269.0352504998
 10
448.0370049849
 20
-267.9656401455
 10
451.3077402713
 20
-266.7029528029
 10
454.6002686409
 20
-265.2499641329
 10
457.9073524017
 20
-263.6098681198
 10
461.2217218659
 20
-261.7862700507
  0
LWPOLYLINE
  5
B0
330
1F
100
AcDbEntity
  8
0
  6
Continuous
 62
     7
370
    25
100
AcDbPolyline
 90
      122
 70
   128
 43
0.0
 10
369.2781201984
 20
-193.8473158268
 10
372.2803063152
 20
-192.0241595608
 10
375.274399069
 20
-190.0258559791
 10
378.2523269152
 20
-187.8577921547
 10
381.2060618866
 20
-185.5258128046
 10
384.1276412361
 20
-183.0362045327
 10
387.0091889022
 20
-180.3956788827
 10
389.8429367419
 20
-177.611354245
 10
392.621245472
 20
-174.6907366666
 10
395.3366252634
 20
-171.641699616
 10
397.9817559322
 20
-168.4724627581
 10
400.5495066739
 20
-165.1915697952
 10
403.0329552862
 20
-161.8078654346
 10
405.425406831
 20
-158.330471545
 10
407.7204116818
 20
-154.7687625657
 10
409.9117829112
 20
-151.1323402342
 10
411.9936129699
 20
-147.4310077023
 10
413.960289612
 20
-143.6747431081
 10
415.8065110252
 20
-139.8736726768
 10
417.5273001228
 20
-136.0380434224
 10
419.1180179616
 20
-132.1781955231
 10
420.5743762477
 20
-128.3045344465
 10
421.8924488964
 20
-124.427502898
 10
423.0686826172
 20
-120.5575526691
 10
424.0999064916
 20
-116.7051164616
 10
424.9833405226
 20
-112.8805797623
 10
425.7166031282
 20
-109.094252846
 10
426.297717562
 20
-105.3563429806
 10
426.7251172422
 20
-101.6769269103
 10
426.9976499748
 20
-98.0659236904
 10
427.1145810599
 20
-94.533067947
 10
427.0755952718
 20
-91.0878836346
 10
426.8807977094
 20
-87.7396583611
 10
426.5307135125
 20
-84.4974183499
 10
426.0262864461
 20
-81.3699041067
 10
425.3688763564
 20
-78.3655468571
 10
424.5602555048
 20
-75.492445817
 10
423.6026037902
 20
-72.7583463588
 10
422.4985028723
 20
-70.1706191314
 10
421.250929212
 20
-67.7362401899
 10
419.8632460472
 20
-65.4617721894
 10
418.3391943264
 20
-63.3533466936
 10
416.6828826237
 20
-61.4166476448
 10
414.8987760625
 20
-59.6568960414
 10
412.9916842788
 20
-58.0788358624
 10
410.9667484547
 20
-56.6867212791
 10
408.8294274593
 20
-55.4843051864
 10
406.5854831321
 20
-54.4748290854
 10
404.2409647503
 20
-53.6610143452
 10
401.802192721
 20
-53.0450548664
 10
399.2757415423
 20
-52.6286111671
 10
396.6684220799
 20
-52.4128059056
 10
393.9872632062
 20
-52.3982208549
 10
391.2394928515
 20
-52.5848953336
 10
388.4325185189
 20
-52.9723261005
 10
385.5739073148
 20
-53.5594687105
 10
382.6713655497
 20
-54.3447403312
 10
379.7327179631
 20
-55.3260240089
 10
376.7658866292
 20
-56.5006743764
 10
373.7788696008
 20
-57.865524784
 10
370.7797193478
 20
-59.4168958363
 10
367.7765210489
 20
-61.1506053112
 10
364.7773707959
 20
-63.0619794344
 10
361.7903537675
 20
-65.1458654794
 10
358.8235224337
 20
-67.3966456576
 10
355.884874847
 20
-69.8082522637
 10
352.9823330819
 20
-72.3741840327
 10
350.1237218778
 20
-75.0875236661
 10
347.3167475452
 20
-77.9409564801
 10
344.5689771905
 20
-80.9267901241
 10
341.8878183168
 20
-84.0369753187
 10
339.2804988545
 20
-87.2631275543
 10
336.7540476757
 20
-90.596549695
 10
334.3152756464
 20
-94.028255424
 10
331.9707572646
 20
-97.5489934693
 10
329.7268129374
 20
-101.1492725437
 10
327.589491942
 20
-104.8193869313
 10
325.5645561179
 20
-108.5494426525
 10
323.6574643342
 20
-112.3293841367
 10
321.873357773
 20
-116.1490213298
 10
320.2170460703
 20
-119.9980571653
 10
318.6929943495
 20
-123.866115323
 10
317.3053111848
 20
-127.7427682021
 10
316.0577375244
 20
-131.6175650318
 10
314.9536366065
 20
-135.4800600448
 10
313.9959848919
 20
-139.3198406375
 10
313.1873640403
 20
-143.1265554403
 10
312.5299539506
 20
-146.8899422231
 10
312.0255268842
 20
-150.5998555604
 10
311.6754426873
 20
-154.2462941819
 10
311.4806451249
 20
-157.8194279336
 10
311.4416593368
 20
-161.3096242787
 10
311.5585904219
 20
-164.707474265
 10
311.8311231545
 20
-168.0038178896
 10
312.2585228347
 20
-171.1897687928
 10
312.8396372685
 20
-174.2567382143
 10
313.5728998741
 20
-177.1964581468
 10
314.4563339051
 20
-180.001003625
 10
315.4875577795
 20
-182.6628140902
 10
316.6637915003
 20
-185.174713772
 10
317.9818641491
 20
-187.529931033
 10
319.4382224351
 20
-189.7221166238
 10
321.028940274
 20
-191.7453607995
 10
322.7497293715
 20
-193.5942092517
 10
324.5959507847
 20
-195.2636778118
 10
326.5626274268
 20
-196.7492658876
 10
328.6444574855
 20
-198.0469685965
 10
330.8358287149
 20
-199.1532875612
 10
333.1308335657
 20
-200.0652403416
 10
335.5232851105
 20
-200.780368474
 10
338.0067337229
 20
-201.2967440996
 10
340.5744844645
 20
-201.6129751608
 10
343.2196151333
 20
-201.7282091548
 10
345.9349949247
 20
-201.6421354309
 10
348.7133036548
 20
-201.3549860288
 10
351.5470514945
 20
-200.8675350525
 10
354.4285991606
 20
-200.1810965835
 10
357.3501785101
 20
-199.2975211388
 10
360.3039134816
 20
-198.2191906814
 10
363.2818413277
 20
-196.9490121996
 10
366.2759340815
 20
-195.4904098701
 10
369.2781201984
 20
-193.8473158268
  0
ENDSEC
  0
SECTION
  2
OBJECTS
  0
DICTIONARY
  5
C
330
0
100
AcDbDictionary
281
     1
  3
ACAD_GROUP
350
D
  3
ACAD_LAYOUT
350
1A
  3
ACAD_MLINESTYLE
350
17
  3
ACAD_PLOTSETTINGS
350
19
  3
ACAD_PLOTSTYLENAME
350
E
  3
ACAD_SCALELIST
350
47
  3
DWGPROPS
350
B1
  0
DICTIONARY
  5
D
102
{ACAD_REACTORS
330
C
102
}
330
C
100
AcDbDictionary
281
     1
  0
DICTIONARY
  5
1A
102
{ACAD_REACTORS
330
C
102
}
330
C
100
AcDbDictionary
281
     1
  3
Layout1
350
1E
  3
Layout2
350
26
  3
Model
350
22
  0
DICTIONARY
  5
17
102
{ACAD_REACTORS
330
C
102
}
330
C
100
AcDbDictionary
281
     1
  3
Standard
350
18
  0
DICTIONARY
  5
19
102
{ACAD_REACTORS
330
C
102
}
330
C
100
AcDbDictionary
281
     1
  0
ACDBDICTIONARYWDFLT
  5
E
102
{ACAD_REACTORS
330
C
102
}
330
C
100
AcDbDictionary
281
     1
  3
Normal
350
F
100
AcDbDictionaryWithDefault
340
F
  0
DICTIONARY
  5
47
102
{ACAD_REACTORS
330
C
102
}
330
C
100
AcDbDictionary
281
     1
  3
A0
350
48
  3
A1
350
49
  3
A2
350
4A
  3
A3
350
4B
  3
A4
350
4C
  3
A5
350
4D
  3
A6
350
4E
  3
A7
350
4F
  3
A8
350
50
  3
A9
350
51
  3
B0
350
52
  3
B1
350
53
  3
B2
350
54
  3
B3
350
55
  3
B4
350
56
  3
B5
350
57
  3
B6
350
58
  3
B7
350
59
  3
B8
350
5A
  3
B9
350
5B
  3
C0
350
5C
  3
C1
350
5D
  3
C2
350
5E
  3
C3
350
5F
  3
C4
350
60
  3
C5
350
61
  3
C6
350
62
  3
C7
350
63
  3
C8
350
64
  3
C9
350
65
  3
D0
350
66
  3
D1
350
67
  3
D2
350
68
  0
XRECORD
  5
B1
102
{ACAD_REACTORS
330
C
102
}
330
C
100
AcDbXrecord
280
     1
  1
DWGPROPS COOKIE
  2

  3

  4

  6

  7

  8
b.kav
  9

300
=
301
=
302
=
303
=
304
=
305
=
306
=
307
=
308
=
309
=
 40
0.0
 41
2460697.415971886
 42
2460697.415971886
  1

 90
        0
  0
LAYOUT
  5
1E
102
{ACAD_REACTORS
330
1A
102
}
330
1A
100
AcDbPlotSettings
  1

  2
none_device
  4

  6

 40
0.0
 41
0.0
 42
0.0
 43
0.0
 44
0.0
 45
0.0
 46
0.0
 47
0.0
 48
0.0
 49
0.0
140
0.0
141
0.0
142
1.0
143
1.0
 70
   688
 72
     1
 73
     0
 74
     5
  7

 75
    16
147
1.0
148
0.0
149
0.0
100
AcDbLayout
  1
Layout1
 70
     1
 71
     1
 10
0.0
 20
0.0
 11
420.0
 21
297.0
 12
0.0
 22
0.0
 32
0.0
 14
1.0000000000E+20
 24
1.0000000000E+20
 34
1.0000000000E+20
 15
-1.0000000000E+20
 25
-1.0000000000E+20
 35
-1.0000000000E+20
146
0.0
 13
0.0
 23
0.0
 33
0.0
 16
1.0
 26
0.0
 36
0.0
 17
0.0
 27
1.0
 37
0.0
 76
     0
330
1B
  0
LAYOUT
  5
26
102
{ACAD_REACTORS
330
1A
102
}
330
1A
100
AcDbPlotSettings
  1

  2
none_device
  4

  6

 40
0.0
 41
0.0
 42
0.0
 43
0.0
 44
0.0
 45
0.0
 46
0.0
 47
0.0
 48
0.0
 49
0.0
140
0.0
141
0.0
142
1.0
143
1.0
 70
   688
 72
     1
 73
     0
 74
     5
  7

 75
    16
147
1.0
148
0.0
149
0.0
100
AcDbLayout
  1
Layout2
 70
     1
 71
     2
 10
0.0
 20
0.0
 11
0.0
 21
0.0
 12
0.0
 22
0.0
 32
0.0
 14
0.0
 24
0.0
 34
0.0
 15
0.0
 25
0.0
 35
0.0
146
0.0
 13
0.0
 23
0.0
 33
0.0
 16
1.0
 26
0.0
 36
0.0
 17
0.0
 27
1.0
 37
0.0
 76
     0
330
23
  0
LAYOUT
  5
22
102
{ACAD_REACTORS
330
1A
102
}
330
1A
100
AcDbPlotSettings
  1

  2
none_device
  4
Letter_(8.50_x_11.00_Inches)
  6

 40
6.35
 41
6.35
 42
6.35000508
 43
6.35000508
 44
215.9
 45
279.4
 46
0.0
 47
0.0
 48
0.0
 49
0.0
140
0.0
141
0.0
142
1.0
143
1.0
 70
  1712
 72
     1
 73
     0
 74
     0
  7

 75
     0
147
1.0
148
0.0
149
0.0
100
AcDbLayout
  1
Model
 70
     1
 71
     0
 10
0.0
 20
0.0
 11
279.4
 21
215.9
 12
0.0
 22
0.0
 32
0.0
 14
0.0
 24
0.0
 34
0.0
 15
279.4
 25
215.9
 35
0.0
146
0.0
 13
0.0
 23
0.0
 33
0.0
 16
1.0
 26
0.0
 36
0.0
 17
0.0
 27
1.0
 37
0.0
 76
     0
330
1F
331
29
  0
MLINESTYLE
  5
18
102
{ACAD_REACTORS
330
17
102
}
330
17
100
AcDbMlineStyle
  2
Standard
 70
     0
  3

 62
   256
 51
90.0
 52
90.0
 71
     2
 49
0.5
 62
   256
  6
BYLAYER
 49
-0.5
 62
   256
  6
BYLAYER
  0
ACDBPLACEHOLDER
  5
F
102
{ACAD_REACTORS
330
E
102
}
330
E
  0
SCALE
  5
48
102
{ACAD_REACTORS
330
47
102
}
330
47
100
AcDbScale
 70
     0
300
1:1
140
1.0
141
1.0
290
     1
  0
SCALE
  5
49
102
{ACAD_REACTORS
330
47
102
}
330
47
100
AcDbScale
 70
     0
300
1:2
140
1.0
141
2.0
290
     0
  0
SCALE
  5
4A
102
{ACAD_REACTORS
330
47
102
}
330
47
100
AcDbScale
 70
     0
300
1:4
140
1.0
141
4.0
290
     0
  0
SCALE
  5
4B
102
{ACAD_REACTORS
330
47
102
}
330
47
100
AcDbScale
 70
     0
300
1:5
140
1.0
141
5.0
290
     0
  0
SCALE
  5
4C
102
{ACAD_REACTORS
330
47
102
}
330
47
100
AcDbScale
 70
     0
300
1:8
140
1.0
141
8.0
290
     0
  0
SCALE
  5
4D
102
{ACAD_REACTORS
330
47
102
}
330
47
100
AcDbScale
 70
     0
300
1:10
140
1.0
141
10.0
290
     0
  0
SCALE
  5
4E
102
{ACAD_REACTORS
330
47
102
}
330
47
100
AcDbScale
 70
     0
300
1:16
140
1.0
141
16.0
290
     0
  0
SCALE
  5
4F
102
{ACAD_REACTORS
330
47
102
}
330
47
100
AcDbScale
 70
     0
300
1:20
140
1.0
141
20.0
290
     0
  0
SCALE
  5
50
102
{ACAD_REACTORS
330
47
102
}
330
47
100
AcDbScale
 70
     0
300
1:30
140
1.0
141
30.0
290
     0
  0
SCALE
  5
51
102
{ACAD_REACTORS
330
47
102
}
330
47
100
AcDbScale
 70
     0
300
1:40
140
1.0
141
40.0
290
     0
  0
SCALE
  5
52
102
{ACAD_REACTORS
330
47
102
}
330
47
100
AcDbScale
 70
     0
300
1:50
140
1.0
141
50.0
290
     0
  0
SCALE
  5
53
102
{ACAD_REACTORS
330
47
102
}
330
47
100
AcDbScale
 70
     0
300
1:100
140
1.0
141
100.0
290
     0
  0
SCALE
  5
54
102
{ACAD_REACTORS
330
47
102
}
330
47
100
AcDbScale
 70
     0
300
2:1
140
2.0
141
1.0
290
     0
  0
SCALE
  5
55
102
{ACAD_REACTORS
330
47
102
}
330
47
100
AcDbScale
 70
     0
300
4:1
140
4.0
141
1.0
290
     0
  0
SCALE
  5
56
102
{ACAD_REACTORS
330
47
102
}
330
47
100
AcDbScale
 70
     0
300
8:1
140
8.0
141
1.0
290
     0
  0
SCALE
  5
57
102
{ACAD_REACTORS
330
47
102
}
330
47
100
AcDbScale
 70
     0
300
10:1
140
10.0
141
1.0
290
     0
  0
SCALE
  5
58
102
{ACAD_REACTORS
330
47
102
}
330
47
100
AcDbScale
 70
     0
300
100:1
140
100.0
141
1.0
290
     0
  0
SCALE
  5
59
102
{ACAD_REACTORS
330
47
102
}
330
47
100
AcDbScale
 70
     0
300
1/128" = 1'-0"
140
0.0078125
141
12.0
290
     0
  0
SCALE
  5
5A
102
{ACAD_REACTORS
330
47
102
}
330
47
100
AcDbScale
 70
     0
300
1/64" = 1'-0"
140
0.015625
141
12.0
290
     0
  0
SCALE
  5
5B
102
{ACAD_REACTORS
330
47
102
}
330
47
100
AcDbScale
 70
     0
300
1/32" = 1'-0"
140
0.03125
141
12.0
290
     0
  0
SCALE
  5
5C
102
{ACAD_REACTORS
330
47
102
}
330
47
100
AcDbScale
 70
     0
300
1/16" = 1'-0"
140
0.0625
141
12.0
290
     0
  0
SCALE
  5
5D
102
{ACAD_REACTORS
330
47
102
}
330
47
100
AcDbScale
 70
     0
300
3/32" = 1'-0"
140
0.09375
141
12.0
290
     0
  0
SCALE
  5
5E
102
{ACAD_REACTORS
330
47
102
}
330
47
100
AcDbScale
 70
     0
300
1/8" = 1'-0"
140
0.125
141
12.0
290
     0
  0
SCALE
  5
5F
102
{ACAD_REACTORS
330
47
102
}
330
47
100
AcDbScale
 70
     0
300
3/16" = 1'-0"
140
0.1875
141
12.0
290
     0
  0
SCALE
  5
60
102
{ACAD_REACTORS
330
47
102
}
330
47
100
AcDbScale
 70
     0
300
1/4" = 1'-0"
140
0.25
141
12.0
290
     0
  0
SCALE
  5
61
102
{ACAD_REACTORS
330
47
102
}
330
47
100
AcDbScale
 70
     0
300
3/8" = 1'-0"
140
0.375
141
12.0
290
     0
  0
SCALE
  5
62
102
{ACAD_REACTORS
330
47
102
}
330
47
100
AcDbScale
 70
     0
300
1/2" = 1'-0"
140
0.5
141
12.0
290
     0
  0
SCALE
  5
63
102
{ACAD_REACTORS
330
47
102
}
330
47
100
AcDbScale
 70
     0
300
3/4" = 1'-0"
140
0.75
141
12.0
290
     0
  0
SCALE
  5
64
102
{ACAD_REACTORS
330
47
102
}
330
47
100
AcDbScale
 70
     0
300
1" = 1'-0"
140
1.0
141
12.0
290
     0
  0
SCALE
  5
65
102
{ACAD_REACTORS
330
47
102
}
330
47
100
AcDbScale
 70
     0
300
1-1/2" = 1'-0"
140
1.5
141
12.0
290
     0
  0
SCALE
  5
66
102
{ACAD_REACTORS
330
47
102
}
330
47
100
AcDbScale
 70
     0
300
3" = 1'-0"
140
3.0
141
12.0
290
     0
  0
SCALE
  5
67
102
{ACAD_REACTORS
330
47
102
}
330
47
100
AcDbScale
 70
     0
300
6" = 1'-0"
140
6.0
141
12.0
290
     0
  0
SCALE
  5
68
102
{ACAD_REACTORS
330
47
102
}
330
47
100
AcDbScale
 70
     0
300
1'-0" = 1'-0"
140
12.0
141
12.0
290
     0
  0
ENDSEC
  0
EOF
